0
SECTION
2
HEADER
9
$INSUNITS
70
4
9
$ACADVER
1
AC1014
9
$HANDSEED
5
FFFF
0
ENDSEC
0
SECTION
2
TABLES
0
TABLE
2
VPORT
5
8
100
AcDbSymbolTable
0
ENDTAB
0
TABLE
2
LTYPE
5
5
100
AcDbSymbolTable
0
LTYPE
5
14
100
AcDbSymbolTableRecord
100
AcDbLinetypeTableRecord
2
BYBLOCK
70
0
0
LTYPE
5
15
100
AcDbSymbolTableRecord
100
AcDbLinetypeTableRecord
2
BYLAYER
70
0
0
ENDTAB
0
TABLE
2
LAYER
5
2
100
AcDbSymbolTable
70
2
0
LAYER
5
50
100
AcDbSymbolTableRecord
100
AcDbLayerTableRecord
2
0
70
0
6
CONTINUOUS
0
ENDTAB
0
TABLE
2
STYLE
5
3
100
AcDbSymbolTable
70
1
0
STYLE
5
11
100
AcDbSymbolTableRecord
100
AcDbTextStyleTableRecord
2
STANDARD
70
0
0
ENDTAB
0
TABLE
2
VIEW
5
6
100
AcDbSymbolTable
70
0
0
ENDTAB
0
TABLE
2
UCS
5
7
100
AcDbSymbolTable
70
0
0
ENDTAB
0
TABLE
2
APPID
5
9
100
AcDbSymbolTable
70
2
0
APPID
5
12
100
AcDbSymbolTableRecord
100
AcDbRegAppTableRecord
2
ACAD
70
0
0
ENDTAB
0
TABLE
2
DIMSTYLE
5
A
100
AcDbSymbolTable
70
1
0
ENDTAB
0
TABLE
2
BLOCK_RECORD
5
1
100
AcDbSymbolTable
70
1
0
BLOCK_RECORD
5
1F
100
AcDbSymbolTableRecord
100
AcDbBlockTableRecord
2
*MODEL_SPACE
0
BLOCK_RECORD
5
1B
100
AcDbSymbolTableRecord
100
AcDbBlockTableRecord
2
*PAPER_SPACE
0
ENDTAB
0
ENDSEC
0
SECTION
2
BLOCKS
0
BLOCK
5
20
100
AcDbEntity
100
AcDbBlockBegin
2
*MODEL_SPACE
0
ENDBLK
5
21
100
AcDbEntity
100
AcDbBlockEnd
0
BLOCK
5
1C
100
AcDbEntity
100
AcDbBlockBegin
2
*PAPER_SPACE
0
ENDBLK
5
1D
100
AcDbEntity
100
AcDbBlockEnd
0
ENDSEC
0
SECTION
2
ENTITIES
0
LWPOLYLINE
5
100
100
AcDbEntity
8
0
100
AcDbPolyline
90
7
70
1
43
0.0
10
-139.76999907545792
20
43.959985183372908
10
-135.54999907545795
20
43.959985183372922
10
-135.54999907545772
20
296.01655179389695
42
0.39169398450529685
10
-148.06299907545781
20
282.49425672935672
10
-148.06299907545781
20
84.859985183372828
42
0.4142135623730942
10
-142.16299907545783
20
78.959985183372851
10
-139.76999907545772
20
78.95998518337295
0
LWPOLYLINE
5
101
100
AcDbEntity
8
0
100
AcDbPolyline
90
7
70
1
43
0.0
10
-126.83700083818823
20
78.959984964019228
42
0.41421356237309592
10
-120.93700066930053
20
84.859984795131538
10
-120.93699501201273
20
282.49425634111532
42
0.39169398450529669
10
-133.44999462493666
20
296.01655176384065
10
-133.45000184006432
20
43.959985153316694
10
-129.23000184006435
20
43.959985032519015
10
-129.23000083818832
20
78.959985032519043
0
ARC
5
102
100
AcDbEntity
8
0
100
AcDbCircle
10
-84.49999928274265
20
282.49425672935672
30
0
40
13.562999792715134
210
0
220
0
230
1
100
AcDbArc
50
94.440080637502803
51
180
0
LINE
5
103
100
AcDbEntity
8
0
100
AcDbLine
10
-70.937000669300531
20
84.859984795131538
30
0
11
-70.93699501201273
21
282.49425634111532
31
0
0
ARC
5
104
100
AcDbEntity
8
0
100
AcDbCircle
10
-92.162999075457819
20
84.859985183372842
30
0
40
5.8999999999999986
210
0
220
0
230
1
100
AcDbArc
50
180
51
270
0
LINE
5
105
100
AcDbEntity
8
0
100
AcDbLine
10
-98.062999075457796
20
282.49425672935672
30
0
11
-98.06299907545781
21
84.859985183372828
31
0
0
ARC
5
106
100
AcDbEntity
8
0
100
AcDbCircle
10
-84.499994804727905
20
282.49425672935666
30
0
40
13.562999792715175
210
-0
220
0
230
1
100
AcDbArc
50
-1.4787793578184993e-06
51
85.559917722403526
0
ARC
5
107
100
AcDbEntity
8
0
100
AcDbCircle
10
-76.837000669300522
20
84.859984964019219
30
0
40
5.9000000000000004
210
0
220
0
230
1
100
AcDbArc
50
269.99999835990627
51
359.99999852122068
0
LINE
5
108
100
AcDbEntity
8
0
100
AcDbLine
10
-79.230000838188332
20
78.959985032519043
30
0
11
-76.837000838188231
21
78.959984964019228
31
0
0
LINE
5
109
100
AcDbEntity
8
0
100
AcDbLine
10
-92.162999075457819
20
78.959985183372851
30
0
11
-89.769999075457733
21
78.95998518337295
31
0
0
LINE
5
110
100
AcDbEntity
8
0
100
AcDbLine
10
-89.769999075457733
20
78.95998518337295
30
0
11
-79.230000838188332
21
78.959985032519043
31
0
0
LWPOLYLINE
5
111
100
AcDbEntity
8
0
100
AcDbPolyline
90
4
70
1
43
0.0
10
-85.549999075457706
20
296.01655179389695
10
-83.449994624936679
20
296.01655179389695
10
-83.449994624936679
20
296.01655176384065
10
-85.549999075457706
20
296.01655176384065
0
ENDSEC
0
SECTION
2
OBJECTS
0
DICTIONARY
5
C
100
AcDbDictionary
3
ACAD_GROUP
350
D
3
ACAD_MLINESTYLE
350
17
0
DICTIONARY
5
D
100
AcDbDictionary
0
DICTIONARY
5
1A
330
C
100
AcDbDictionary
0
DICTIONARY
5
17
100
AcDbDictionary
0
ENDSEC
0
EOF
